Neler yeni
Türkiye'nin En Güncel Forum Sitesi

Forum içeriğine ve tüm hizmetlerimize erişim sağlamak için foruma kayıt olmalı yada giriş yapmalısınız. Forum üye olmak tamamen ücretsizdir.

110 - Gölge

Almora

Kayıtlı Üye
MFC Üyesi
Konum
Mersin
  • Üyelik Tarihi
    2 Ağu 2014
  • Mesajlar
    2,859
  • MFC Puanı
    443
  • MFC Seviyesi

Mod : Do minör
Ton : Distortion

Solo
*wah-wah
e|-----------------------------------------------------------------|
B|-8-8-8-8-7-7-7-7-5-5-5-5---------------------------5-----5-------|
G|-------------------------5-5-5-5-4-4-4-4-4-4-4-4-----4-4---4-4---|
D|-----------------------------------------------------------------|
A|-----------------------------------------------------------------|
E|-----------------------------------------------------------------|


e|-----------------------------------------------------------------|
B|-----------------------------------------------------------------|
G|-5-5-5-5-4-4-4-4-5-5-5-5-6-6-6-6-5-5-5-5-------------------------|
D|-x-x-x-x-x-x-x-x-x-x-x-x-x-x-x-x-x-x-x-x-------------------------|
A|-3-3-3-3-2-2-2-2-3-3-3-3-4-4-4-4-3-3-3-3-------------------------|
E|-----------------------------------------------------------------|
 
Üst Alt