Neler yeni
Türkiye'nin En Güncel Forum Sitesi

Forum içeriğine ve tüm hizmetlerimize erişim sağlamak için foruma kayıt olmalı yada giriş yapmalısınız. Forum üye olmak tamamen ücretsizdir.

Murat Boz - Bulmaca - AKOR

imported_Snow

Kayıtlı Üye
MFC Üyesi
  • Üyelik Tarihi
    30 Mar 2015
  • Mesajlar
    70
  • MFC Puanı
    0
  • MFC Seviyesi

Kapo 1 / G´ler bareli basılacak

Em D
Sen de vardın o gün bizimle
C Am B7
Dostlar anlattı adın çok geçti
Em D
Üzüntümü herkes gördü yüzümde
C Am B7
Tatsız anlamsız zaman zor geçti

Em Bm C B7
İki şarkı okundu birisi çok dokundu
Em Bm C B7 Em } 2 defa
Dönme derse gururun ona uyma olur mu
C, Bm

Bm F#m
Ümitler yaşlanıp yok olup silinecek
G D G F#m
Giden uzaklaştıkça kalan kıymetlenecek
Bm F#m } 2 defa
Soldan sağa iki kalpli en zor bulmaca
G D C F#m
Aşkı birimiz çözecek birimiz de üzülecek


Intro : Tabla birlikte calinacak Akorlar:


Bm, F#m
G-4--6-7-6-7-6-7---------7-6-4-6-2-6-4-6-2--4-2
D-----------------4-5-7-9----------------------
}Kapo 1´ile calinacak TAB ona gö
re yazdim
G, D, C, F#m
G--------------------------2-4-6--4-2-4-2-0-
D-5-7-9-7-9-7-9-2-4-5-4-5--------------------4-


Kaposuz Tab :
Bm, F#m
G-5--7-8-7-8-7-8---------8-7-5-7-3-7-5-7-3--4-3
D----------------5-6-8-10----------------------

G, D, C, F#m
G----------------------------3--5-7-5-3-5-3-1
D-6-8-10-8-10-8-10-3-5-6-5-6-----------------5-
 
Üst Alt