Neler yeni
Türkiye'nin En Güncel Forum Sitesi

Forum içeriğine ve tüm hizmetlerimize erişim sağlamak için foruma kayıt olmalı yada giriş yapmalısınız. Forum üye olmak tamamen ücretsizdir.

6. Cadde - Git

Almora

Kayıtlı Üye
MFC Üyesi
Konum
Mersin
  • Üyelik Tarihi
    2 Ağu 2014
  • Mesajlar
    2,859
  • MFC Puanı
    443
  • MFC Seviyesi

6. Cadde - Git


--------------------------------------------------------
--------------------------------------------------------
--------------------------------------------------------
--6--6--6--6--6--11-11-11-11-11--7-7-7-7-7--9-9-9-11-11-
--6--6--6--6--6--11-11-11-11-11--7-7-7-7-7--9-9-9-11-11-
--4--4--4--4--4---9-9--9--9--9---5-5-5-5-5--7-7-7-9--9--
adam olmaz dedin senden adam nedir dedim içimden



söz araları (ritm gitar)-akustik
-------------
-------------
-------------
--11-9-7-6---
--11-9-7-6---
--9--7-5-4---

söz araları solo gitar-elektro
---------------------------------------------------------------
---------------------------------------------------------------
----------4/6----------6-8-6-4-2----------4---6-------6-4-2-1--
---------------------------------------------------------------
---------------------------------------------------------------
---------------------------------------------------------------
adam olmaz dedin senden adam nedir.. içimden


nakarat
-9--9---9---9----8--8--8--8--------------------------I-------
-9--9---9---9----8--8--8--8--------------------------I-------
-9--9---9---9----8--8--8--8--------------------------I-------
-9--9---9---9----8--8--8--8-----7-7-7-7---6--6--6--6-I---7-9-
-7--7---7---7----6--6--6--6-----7-7-7-7---6--6--6--6-I---7-9-
--------------------------------5-5-5-5---4--4--4--4-I---5-7-
git gideceksen bekleme farklı....sende gideceksen....

nakarat aşağıdaki gibi de çalınabilir


nakarat
--0--0---0---0---0----------------------5--5--5--5--5--4--4--4-I-5-7--
--1--1---1---1---1----0--0--0--0--0-----5--5--5--5--5--4--4--4-I-5-7--
--2--2---2---2---2----1--1--1--1--1-----6--6--6--6--6--4--4--4-I-6-8--
--2--2---2---2---2----2--2--2--2--2-----7--7--7--7--7--6--6--6-I-7-9--
--0--0---0---0---0----2--2--2--2--2-----7--7--7--7--7--6--6--6-I-7-9--
----------------------0--0--0--0--0-----5--5--5--5--5--4--4--4-I-5-7--
git gideceksen bekleme farklı değilsin...gideceksen bekleme.










nakarat sonrası (akorlu bölüm)
-5--5--5--5--5----9---9--9--9--9----5--5--5--5-5--7--7--7--7--7-I-----------
-5--5--5--5--5----9---9--9--9--9----5--5--5--5-5--7--7--7--7--7-I----------
-6--6--6--6--6----10-10--10-10-10---6--6--6--6-6--8--8--8--8--8-I----------
-7--7--7--7--7----11-11--11-11-11---7--7--7--7-7--9--9--9--9--9-I-11-9-7-6-
-7--7--7--7--7----11-11--11-11-11---7--7--7--7-7--9--9--9--9--9-I-11-9-7-6-
-5--5--5--5--5----9---9--9--9--9----5--5--5--5-5--7--7--7--7--7-I--9-7-5-4-
 
Üst Alt